Special thanks to Anthony G (aka "QT") who is the author of all these tabs! If you find any comments or any mistakes in the tabs you can reach him at: anthony_g@prontomail.com

Beef | Bloodflame | Comb | Destruction Of The Universe | Don't Sweat It | Fade Away | Feet For Fins | Flyweight | Get With The Program | Gracie | I'm Your Demon | M-Bomb | More Than Like | Rednecks N' Monster Trucks | Rock Past It | Wake Up, You're On Fire | Zipper

 

Beef

Drop D tuning....

Intro

e||--------------------------
B||-------------------------
G||-------------------------
D||--0-4-3--0-0-4-3------
A||--0-4-3--0-0-4-3------
D||--0-4-3--0-0-4-3------



e||---------------------------
B||---------------------------
G||---------------------------
D||--0-7-7-7-0-7-7-7--3-3-- 4x
A||--0-5-5-5-0-5-5-5--3-3--
D||--0-0-0-0-0-0-0-0--3-3--


*Excuse the open string on the A# chord..its just there so everything is lined up.....*

e||---------------------------
B||---------------------------
G||---------------------------
D||--0-3-3--0-0-3-3--------- 4x
A||--0-1-3--0-0-1-3---------
D||--0-0-3--0-0-0-3---------


Fill
e||-----------
B||----------
G||----------
D||--3-3----
A||--3-3----
D||--3-3-----
      -pm-

e||--------------------------------------------------------------
B||--------------------------------------------------------------
G||--------------------------------------------------------------
D||--3-3----3-3----5-5----5-5--3-3---3-3-3--0-0-0-0--------
A||--1-1----3-3----3-3----5-5--1-1---3-3-3--0-0-0-0--------
D||------0--3-3--0------0-5-5------0-3-3-3--0-0-0-0--------
                                           ----pm---- 

e||------------------
B||------------------
G||------------------
D||--0-0-0-0-0-0---
repeat as many times as needed
A||--0-0-0-0-0-0---
D||--0-0-0-0-0-0---


Fill 2
e||---------
B||--15^---
G||---------
D||---------
A||---------
D||---------


e||----------------------------------------------------------------------------
B||----------------------------------------------------------------------------
G||----------------------------------------------------------------------------
D||--8-8-8-8-8-8-8-8--5-5-5-5-5-3-5---5-5-5-5-5-3-5---5-5-5-5-5-3-5--5-5-5-5-5-
A||--8-8-8-8-8-8-8-8--3-3-3-3-3-1-3---3-3-3-3-3-1-3---3-3-3-3-3-1-3--3-3-3-3-3-
D||--8-8-8-8-8-8-8-8-----------------------------------------------------------


Now go right back to the Intro riff

Repeat riffs as needed

Now there's this riff with distortion
e||--------------------
B||--------------------
G||--------------------
D||--5-5-5-5-5-5-5---
Repeat as many times as needed
A||--3-3-3-3-3-1-3---
D||--------------------

Back To The Top

Bloodflame

Drop D for this one:

Rhy. Fig 1 

   Gtr. 1 
   
e|----------------------------------------------------------------------|
B|----------------------------------------------------------------------|
G|----------------------------------------------------------------------|
D|-4-4-4-4-4-4-4-4--7-7-7-7-7-7-7-7--0-0-0-0-0-0-0-0--9-9-9-9-9-9-9-9---|  2x
A|-4-4-4-4-4-4-4-4--7-7-7-7-7-7-7-7--0-0-0-0-0-0-0-0--9-9-9-9-9-9-9-9---| 
D|-4-4-4-4-4-4-4-4--7-7-7-7-7-7-7-7--0-0-0-0-0-0-0-0--9-9-9-9-9-9-9-9---|
  <-------------------------------palm muted------------------------------->

   

Rhy. Fig 2 (both gtrs) 

While one guitarist plays Rhy. Fig 1. Get another one to play:
   

e|--------------------------------------------------------------|
B|--------------------------------------------------------------|
G|--------------------------------------------------------------|
D|-4-----------------\7-----------------\0---------------/9-----|
A|-4-----------------\7-----------------\0---------------/9-----|
D|-4-----------------\7-----------------\0---------------/9-----|

 

Chorus

Gtrs 1 & 2 

e|---------------------------------------------|
B|---------------------------------------------|
G|---------------------------------------------|
D|-4----\7----0--0--9/--4-4---\7----0--0--9--0-|
A|-4----\7----0--0--9/--4-4---\7----0--0--9--0-|
D|-4----\7----0--0--9/--4-4---\7----0--0--9--0-|


 
Interlude

Gtr. 2 
Play it as many times as necessary but there's a
harmonic there on the 5th fret of the G string I believe.

e|----------------------------------|
B|----------------------------------|
G|----------------------------------|
D|-2-0-2---2-3-2---0-2-0-0-2-0-3----| 
A|-2-0-2---2-3-2---0-2-0-0-2-0-3----|.
D|-2-0-2---2-3-2---0-2-0-0-2-0-3----|
  <------------palm mute-------------->


Bridge

Gtrs. 1 & 2 

e|------------------------------------------------------------------|
B|------------------------------------------------------------------|
G|-7-7-7-7-7-7-7-7-7-7-7-7-7-7-7-7--4-4-4-4-4-4-4-4-4-4-4-4-4-4-4-4-|
D|-7-7-7-7-7-7-7-7-7-7-7-7-7-7-7-7--4-4-4-4-4-4-4-4-4-4-4-4-4-4-4-4-|
A|-5-5-5-5-5-5-5-5-5-5-5-5-5-5-5-5--2-2-2-2-2-2-2-2-2-2-2-2-2-2-2-2-|
D|------------------------------------------------------------------|
   

e|---------------------------------------------|
B|---------------------------------------------|
G|---------------------------------------------|
D|-4----\7----0--0--9/--4-4---\7----0--0--9--0-|
A|-4----\7----0--0--9/--4-4---\7----0--0--9--0-|
D|-4----\7----0--0--9/--4-4---\7----0--0--9--0-|



Outro

e|-------------------------------------------|
B|------------------------------------------|
G|------------------------------------------|
D|-4----\7----0--0--9/--4-4---\7----0--0--9-|
A|-4----\7----0--0--9/--4-4---\7----0--0--9-|
D|-4----\7----0--0--9/--4-4---\7----0--0--9-|

Back To The Top

Comb

Cool riff in this song.....good song too...

Drop D tuning....

Okay for the intro riff, I'm giving you the chords, you listen to the song
and find out when to play them fast, or play them slow,
or play them palm muted or whatever....

Intro

e||------------------------------
B||------------------------------
G||------------------------------
D||--7-77--6-66--7-77--5-/6---
           Now I'm positive that that riff is right! I mean,  
A||--5-55--5-55--5-55--5-/6---          I wrote it myself.....haha
D||------------------------5-/6---      
       
Chorus
Now for the palm mute on the 2nd fret, you could also pick scratch that....
e||------------------------------------------------------------------
B||-----------------------------------------------------------------
G||-----------------------------------------------------------------
D||--5---5-5--2------0-0-0-0-2-2-2-2--22--5-5-5-5-5-5-5-5----
A||--5---5-5--2------0-0-0-0-2-2-2-2--22--5-5-5-5-5-5-5-5----
D||--5---5-5--2------0-0-0-0-2-2-2-2--22--5-5-5-5-5-5-5-5----
             -pm-                                         -pm-


Here's one more riff...I'm pretty sure it's right......it has to be!
e||---------------------------------------------------------------
B||---------------------------------------------------------------
G||--------------------------------------------------7-6-7----------
D||--7-6-7--5-/6---7-6-7--5-/6--7-6-7--5-/6---x-x-x---5-/6---
A||--5-5-5--5-/6---5-5-5--5-/6--5-5-5--5-/6---5-5-5---5-/6----
D||----------5-/6-----------5-/6-----------5-/6-------------5-/6----

Back To The Top

Destruction of the Universe 

Drop D for this one

Intro 

Play this with a phaser, bending the G alot! It might get tiring, but it sounds awesome! 

e|--2------| 
B|--0------| 
G|--3------| 
D|---------| 
A|---------| 
D|---------| 


Play this after the Intro 

e|-----------------------------| 
B|-----------------------------| 
G|-----------------------------| 
D|-0-0-1h2--0-0-2-1------------| 
A|-----------------------------| 
D|-----------------------------| 




Verse 

e|-------------------------------| 
B|-------------------------------| 
G|-------------------------------| 
D|-------------------------------| 
A|0--0--1-2--0--0--2-1-----------| 
D|0--0--1-2--0--0--2-1-----------| 



Play this riff again 

e|----------------------------------- 
B|----------------------------------- 
G|----------------------------------- 
D|-0-0-1h2--0-0-2-1------------------ 
A|----------------------------------- 
D|----------------------------------- 


Chorus 

e|-------------------------------| 
B|-------------------------------| 
G|-------------------------------| 
D|-------------------------------| 
A|-0-0-x-x-6-0----0-0-x-x-6------| 
D|-0-0-x-x-6-0----0-0-x-x-6------| 




Play the verse again..then play these D power chords whenever needed 

e|----------------------------------- 
B|----------------------------------- 
G|----------------------------------- 
D|----------------------------------- 
A|-0---0-0--------------------------- 
D|-0---0-0--------------------------- 

Back To The Top

Don't Sweat It 

Drop D tuning.... 

Intro 

You can play this riff an easier way but this one sounds better and is more fun to play 

e||-------------------------------------------------- 
B||-------------------------------------------------- 
G||-------------------------------------------------- 
D||--8-8-8-8--12-12-12-12--5-5-5-5--3-3-3-3--- 12x 
A||--8-8-8-8--12-12-12-12--5-5-5-5--3-3-3-3--- 
D||--8-8-8-8--12-12-12-12--5-5-5-5--3-3-3-3--- 
-----------------palm muted----------------- 



Chorus 
Play this 3x and then 1x more but at the end strum an F power chord on the 3 lower strings 
e||----------------------------------------- 
B||---------------------------------------- 
G||---------------------------------------- 
D||--8--8-8-/12-12-\5-5--x-x-x-x-x-x---- 
A||--8--8-8-/12-12-\5-5--x-x-x-x-x-x---- 
D||--8--8-8-/12-12-\5-5--x-x-x-x-x-x---- 


Go back to the Intro riff and then the Chorus riff again.... 

Now here's these riffs 

Gtr.1 
e||------------------------------------------ 
B||------------------------------------------ 
G||------------------------------------------ 
D||--8-8-8-8--0-0-0-0--5-5-5-5--33333--- 
A||--8-8-8-8--0-0-0-0--5-5-5-5--33333--- 
D||--8-8-8-8--0-0-0-0--5-5-5-5--33333--- 


Okay I don't have time to figure out the exact notes Gtr.2 plays, SO, you can just improvise and make up your own, just make sure your in the right key.... 

Those are the riffs in the song... so repeat as necessary! 

Back To The Top

Fade Away 

4-Db 1-Eb 
5-Ab 2-Bb 
6-Db 3-Gb 

Intro 
The <3> is a harmonic on the 3rd fret, duh! 

D#|-------------------------------------------------- 
A#||-------------------------------------------------- 
F#||-------------------------------------------------- 
C#||--0-0--000--0-0-0-0--0-0-000-000------------------- 2x 
G#||--0-0--000--0-0-0-0--0-0-000-000--<3>----- 
C#||--0-0--000--0-0-0-0--0-0-000-000-------1--(0) 
-------------palm mute------------- 



"But you drove, away from me again...." 
D#|-------------------------------------- 
A#||------------------------------------- 
F#||------------------------------------- 
C#||-----------0-0--3-3-3--1-1-1-1--- 
 
G#||-------5^--0-0--3-3-3--1-1-1-1---   
C#||--0-0------0-0--3-3-3--1-1-1-1---  

4x, but on the 4th time, at the end of the riff, pick scratch on the 1st fret 4x before starting the chorus. And the bend is 1/2 step.


Chorus 

D#|--------------------------------------------------------------
A#||------------------------------------------------------------- 
F#||------------------------------------------------------------- 
C#||--0---0-0-0-0--5-5-5-5-5-5-5---3-3-3-3-3--0--0-0-0--111-3-1-- 2x 
G#||--0---0-0-0-0--3-3-3-3-3-3-3---3-3-3-3-3--0--0-0-0--111-3-1-- 
C#||--0---0-0-0-0------------------3-3-3-3-3--0--0-0-0--111-3-1-- 


Now play the start from the top and play all 3 riffs again, the last one 4x this time 

Here's this part, all open chords palm muted. Actually, I'm not going to tab it. It's just the C# chord palm muted the whole way through. Listen to the song to figure out the timing. 

Okay, now this little riff, no distortion. 

D#|------------------------------------ 
A#||------------------------------------ 
F#||------------------------2-----5---- 
C#||------0---0----0----2-----5------- 2x 
G#||----0---3----5----0-----3--------- 
C#||--0----3---5----------------------- 


The Chorus again, 

D#|--------------------------------------------------------------
A#||------------------------------------------------------------- 
F#||-------------------------------------------------------------
C#||--0---0-0-0-0--5-5-5-5-5-5-5---3-3-3-3-3--0--0-0-0--111-3-1-- 4x 
G#||--0---0-0-0-0--3-3-3-3-3-3-3---3-3-3-3-3--0--0-0-0--111-3-1-- 
C#||--0---0-0-0-0------------------3-3-3-3-3--0--0-0-0--111-3-1-- 

Back To The Top

Feet For Fins

Very simple song...only 3 riffs in the whole song...so you piece them together 

Drop D tuning.... 

Intro 

e||--------------------------- 
B||-------------------------- 
G||-------------------------- 
D||--0--8--0--3--x-x-x----- 12x 
A||--0--8--0--3--x-x-x----- 
D||--0--8--0--3--x-x-x----- 

*use alternate picking* 

Chorus 
e||--------------------------------------- 
B||--------------------------------------- 
G||--------------------------------------- 3x and then....... 
D||--8-8-8-8-8-8-8-0-3-3-3-3-3-3-3--- 
A||--8-8-8-8-8-8-8-0-3-3-3-3-3-3-3--- 
D||--8-8-8-8-8-8-8-0-3-3-3-3-3-3-3--- 

e||-----------------------------------------------------------------------------
B||-----------------------------------------------------------------------------
G||-----------------------------------------------------------------------------
D||--8-8-8-8-8-8-8-8--5-5-5-5-5-3-5---5-5-5-5-5-3-5---5-5-5-5-5-3-5--5-5-5-5-5-- 
A||--8-8-8-8-8-8-8-8--3-3-3-3-3-1-3---3-3-3-3-3-1-3---3-3-3-3-3-1-3--3-3-3-3-3-- 
D||--8-8-8-8-8-8-8-8------------------------------------------------------------


Now go right back to the Intro riff 

Repeat riffs as needed 

Now there's this riff with distortion 
e||-------------------- 
B||-------------------- 
G||-------------------- 
D||--5-5-5-5-5-5-5---
Repeat as many times as needed 
A||--3-3-3-3-3-1-3--- 
D||-------------------- 

Back To The Top

Flyweight

Drop D for this one: 

Intro 

Note, the part on the right is totally incorrect, sorry about that, I just don't have the time to figure it out… 

e|--------------------| E|------------------| 
B|--------------------| B|------------------| 
G|--------------------| G|------------------| 
D|--------5-4---------| 3x then D|--4-------4-------| 1x 
A|--0-5-7-----7-5-4---| A|----7-5-4---7-5-4-| 
D|--------------------| D|------------------| 
---palm muted--- ---palm muted-- 



Here's this part 

Note, palm mute all single note 5th fret's on the A string 
Repeat as many times as necessary 

e|------------------------------| 
B|------------------------------| 
G|------------------------------| 
D|-7-----7-----7----------------| 2x 
A|-5-5-5-5-5-5-5-5-5-5--7-9-7-5-| 
D|------------------------------| 


e|----------------------------------------------------------------| 
B|----------------------------------------------------------------| 
G|----------------------------------------------------------------| 
D|-4-----4-----4-------------------5-----5-----5------------------| 
A|-2-2-2-2-2-2-2-2-2-2-2--7-9-7-5--3-3-3-3-3-3-3-3-3-3-3--7-9-7-5-| 
D|----------------------------------------------------------------| 


Now here's this part 

e|-----------------------------------------| 
B|-----------------------------------------| 
G|-----------------------------------------| 
D|-7-7-7-7-7-7-7-7-7-7-7-7-7--4--4--4-5----| 4x 
A|-7-7-7-7-7-7-7-7-7-7-7-7-7--2--4--2-5----| 
D|-7-7-7-7-7-7-7-7-7-7-7-7-7-----4----5----| 




Now you just play the above riff all over again, this time palm muting everything…. 


e|-------------------------| 
B|-------------------------| 
G|-------------------------| 
D|-8\3/5--0--0-0-0--0-0----| 8x 
A|-8\3/5--0--0-0-0--0-0----| 
D|-8\3/5--0--0-0-0--0-0----| 
------palm mute------ 


Okay, now there's this cool part… 

e|---------------------------------------------| 
B|---------------------------------------------| 
G|---------------------------------------------| 
D|--0---7-0--3--7-5--5-5-6-6-6-6-6--1-1-1--0---|
Repeat as many times as 
A|--0---5-0--3--5-5--5-5-6-6-6-6-6--1-1-1--0---| necessary 
D|--0-----0--3----5--5-5-6-6-6-6-6--1-1-1--0---| 
-PM-- 

Now repeat the Intro riff again 

Now basically, those are all the riffs in the song. They're all there, just play them in the right order when your playing…. 

Back To The Top

Get With the Program 

Drop D for this one: 

Intro 

e|------------------------------------------------------| 
B|------------------------------------------------------| 
G|------------------------------------------------------| 
D|---4-4-4--7-7-7--9-9-9-9-9-9-9-9-9-9-9-9-9-9-9-9------| 2x 
A|---4-4-4--7-7-7--7-7-7-7-7-7-7-7-7-7-7-7-7-7-7-7------| 
D|---4-4-4--7-7-7---------------------------------------| 



Verse 1 

e|-------------------------------------------------------------------------| 
B|-------------------------------------------------------------------------| 
G|-------------------------------------------------------------------------| 
D|-------------------------------------------------------------------------|4x 
A|--4-4-4-4-4-4-4-4---7-7-7-7-7-7-7-7--2-2-2-2-2-2-2-2-2-2-2-2-2-2-2-2-----| 
D|--4-4-4-4-4-4-4-4---7-7-7-7-7-7-7-7--2-2-2-2-2-2-2-2-2-2-2-2-2-2-2-2-----| 



Play Intro again 3x, BUT, on the 2nd time play this 

e|--------------------------------------------| 
B|-----------------7-7-7-7-7-7-7-7-7-7-7-7-7--| 
G|--------------------------------------------| 
D|--4-4-4--7-7-7------------------------------| 
A|--4-4-4--7-7-7------------------------------| 
D|--4-4-4--7-7-7------------------------------| 



and then on the 4th time play 

e|----------------------------------------------------------------------| 
B|----------------------------------------------------------------------| 
G|----------------------------------------------------------------------| 
D|-------------------------------------9-9-9-9-9-9-9-9-9-9-9-9-9-9-9-9--| 1x 
A|--4-4-4-4-4-4-4-4---7-7-7-7-7-7-7-7--7-7-7-7-7-7-7-7-7-7-7-7-7-7-7-7--| 
D|--4-4-4-4-4-4-4-4---7-7-7-7-7-7-7-7-----------------------------------| 



Play Verse again 

e|-------------------------------------------------------------------------| 
B|-------------------------------------------------------------------------| 
G|-------------------------------------------------------------------------| 
D|-------------------------------------------------------------------------|4x 
A|--4-4-4-4-4-4-4-4---7-7-7-7-7-7-7-7--2-2-2-2-2-2-2-2-2-2-2-2-2-2-2-2-----| 
D|--4-4-4-4-4-4-4-4---7-7-7-7-7-7-7-7--2-2-2-2-2-2-2-2-2-2-2-2-2-2-2-2-----| 



e|------------------------------------------------------| 
B|------------------------------------------------------| 
G|------------------------------------------------------| 
D|---4-4-4--7-7-7--9-9-9-9-9-9-9-9-9-9-9-9-9-9-9-9------| 
A|---4-4-4--7-7-7--7-7-7-7-7-7-7-7-7-7-7-7-7-7-7-7------| 
D|---4-4-4--7-7-7---------------------------------------| 

e|--------------------------------------------| 
B|-----------------7-7-7-7-7-7-7-7-7-7-7-7-7--| 
G|--------------------------------------------| 
D|--4-4-4--7-7-7------------------------------| 
A|--4-4-4--7-7-7------------------------------| 
D|--4-4-4--7-7-7------------------------------| 



e|------------------------------------------------------| 
B|------------------------------------------------------| 
G|------------------------------------------------------| 
D|---4-4-4--7-7-7--9-9-9-9-9-9-9-9-9-9-9-9-9-9-9-9------| 
A|---4-4-4--7-7-7--7-7-7-7-7-7-7-7-7-7-7-7-7-7-7-7------| 
D|---4-4-4--7-7-7---------------------------------------| 


e|----------------------------------------------------------------------| 
B|----------------------------------------------------------------------| 
G|----------------------------------------------------------------------| 
D|-------------------------------------9-9-9-9-9-9-9-9-9-9-9-9-9-9-9-9--| 1x 
A|--4-4-4-4-4-4-4-4---7-7-7-7-7-7-7-7--7-7-7-7-7-7-7-7-7-7-7-7-7-7-7-7--| 
D|--4-4-4-4-4-4-4-4---7-7-7-7-7-7-7-7-----------------------------------| 



Interlude 

This part may not be EXACTLY right, but it's pretty damn close. I just don't 
have the time to go back and figure out when each chord is played. 

e|-------------------------------------------| 
B|-------------------------------------------| 
G|-------------------------------------------| 
D|-2-2--0-0--4--0--4--0--4-0--4/7-7----------| 2x 
A|-2-2--0-0--4--0--4--0--4-0--4/7-7----------| 
D|-2-2--0-0--4--0--4--0--4-0--4/7-7----------|
 


Then 

e|---------------------------------------------| 
B|---------------------------------------------| 
G|---------------------------------------------| 
D|---------------------4/7-7-------------------| 8x 
A|--0-4-2-4-0-0-4-0-0--4/7-7-------------------| 
D|--0-4-2-4-0-0-4-0-0--4/7-7-------------------| 
<---palm mute---> 


e|------------------------------------------------------| 
B|------------------------------------------------------| 
G|------------------------------------------------------| 
D|---4-4-4--7-7-7--9-9-9-9-9-9-9-9-9-9-9-9-9-9-9-9------| 
A|---4-4-4--7-7-7--7-7-7-7-7-7-7-7-7-7-7-7-7-7-7-7------| 
D|---4-4-4--7-7-7---------------------------------------| 


e|--------------------------------------------| 
B|-----------------7-7-7-7-7-7-7-7-7-7-7-7-7--| 
G|--------------------------------------------| 
D|--4-4-4--7-7-7------------------------------| 
A|--4-4-4--7-7-7------------------------------| 
D|--4-4-4--7-7-7------------------------------| 


e|------------------------------------------------------| 
B|------------------------------------------------------| 
G|------------------------------------------------------| 
D|---4-4-4--7-7-7--9-9-9-9-9-9-9-9-9-9-9-9-9-9-9-9------| 
A|---4-4-4--7-7-7--7-7-7-7-7-7-7-7-7-7-7-7-7-7-7-7------| 
D|---4-4-4--7-7-7---------------------------------------| 

e|------------------------------------------| 
B|------------------------------------------| 
G|------------------------------------------| 
D|--4-4-4-4-4-4-4-4---7-7-7-7-7-7-7-7----2--| 
A|--4-4-4-4-4-4-4-4---7-7-7-7-7-7-7-7----2--| 
D|--4-4-4-4-4-4-4-4---7-7-7-7-7-7-7-7----2--|
Hold the chord on the 2nd fret 

Back To The Top

Gracie 

Drop D for this one: 

Intro 

Gtr. 1 

e|-----------------------------------| 
B|-----------------------------------| 
G|-----------------------------------| 
D|-8\7--0-0-0--4\3-3--0-0-0-0--------| 8x 
A|-8\7--0-0-0--4\3-3--0-0-0-0--------| 
D|-8\7--0-0-0--4\3-3--0-0-0-0--------| 
-PM- ---PM-- 


Now here's the part played behind the Intro 
I'm not sure if you just bend the 7th fret up half step or just slide up to the 8th fret..You be the judge….. 

e|---------------------------| 
B|---------------------------| 
G|---------------------------| 
D|---------------------------|
repeat as many times as necessary 
A|-7--7^--7--7^--7--7^--7----| 
D|---------------------------| 


Now here's this riff..it comes right after the Intro 

e|---------------------| E|-----------| 
B|---------------------| B|-----------| 
G|---------------------| G|-----------| 
D|--8\3/5-0--0-0--1----| 3x then D|--8\3/5--0-| 1X 
A|--8\3/5-0--0-0--1----| A|--8\3/5--0-| 
D|--8\3/5-0--0-0--1----| D|--8\3/5--0-| 
PM- 



Now you just play the above riff all over again, this time palm muting everything…. 


e|-------------------------| 
B|-------------------------| 
G|-------------------------| 
D|-8\3/5--0--0-0-0--0-0----| 8x 
A|-8\3/5--0--0-0-0--0-0----| 
D|-8\3/5--0--0-0-0--0-0----| 
------palm mute------ 


Okay, now there's this cool part… 

e|---------------------------------------------| 
B|---------------------------------------------| 
G|---------------------------------------------| 
D|--0---7-0--3--7-5--5-5-6-6-6-6-6--1-1-1--0---|
Repeat as many times as 
A|--0---5-0--3--5-5--5-5-6-6-6-6-6--1-1-1--0---| necessary 
D|--0-----0--3----5--5-5-6-6-6-6-6--1-1-1--0---| 
-PM-- 

Now repeat the Intro riff again 

Now basically, those are all the riffs in the song. They're all there, just play them in the right order when your playing…. 



e|------------------------------------------------------------------| 
B|------------------------------------------------------------------| 
G|-7-7-7-7-7-7-7-7-7-7-7-7-7-7-7-7--4-4-4-4-4-4-4-4-4-4-4-4-4-4-4-4-| 
D|-7-7-7-7-7-7-7-7-7-7-7-7-7-7-7-7--4-4-4-4-4-4-4-4-4-4-4-4-4-4-4-4-| 
A|-5-5-5-5-5-5-5-5-5-5-5-5-5-5-5-5--2-2-2-2-2-2-2-2-2-2-2-2-2-2-2-2-| 
D|------------------------------------------------------------------| 


e|---------------------------------------------| 
B|---------------------------------------------| 
G|---------------------------------------------| 
D|-4----\7----0--0--9/--4-4---\7----0--0--9--0-| 
A|-4----\7----0--0--9/--4-4---\7----0--0--9--0-| 
D|-4----\7----0--0--9/--4-4---\7----0--0--9--0-| 



Outro 

e|------------------------------------------| 
B|------------------------------------------| 
G|------------------------------------------| 
D|-4----\7----0--0--9/--4-4---\7----0--0--9-| 
A|-4----\7----0--0--9/--4-4---\7----0--0--9-| 
D|-4----\7----0--0--9/--4-4---\7----0--0--9-| 

Back To The Top

I'm Your Demon

Drop D for this one: 

Intro 

e|-----------------------------------------------| 
B|-----------------------------------------------| 
G|-----------------------------------------------| 
D|---------------------7-7-7--9-9-9-9-9-9-9-9----| 1x 
A|--0---0-2-0-4-0-5-0---------9-9-9-9-9-9-9-9----| 
D|----------------------------9-9-9-9-9-9-9-9----| 


Then play this part right after 

e|----------------------------------------------------------| 
B|----------------------------------------------------------| 
G|----------------------------------------------------------| 
D|---------------------7-7-7--9-9-9-/4-4-4-\5-5-5--0-0-0----| 1x 
A|--0---0-2-0-4-0-5-0---------9-9-9-/4-4-4-\5-5-5--0-0-0----| 
D|----------------------------9-9-9-/4-4-4-\5-5-5--0-0-0----| 


\-- Now this riff is the same thing as the one above --\
e|--------------------------------| 
B|--------------------------------| 
G|--------------------------------| 
D|--4-4-4--4-4-4-\5-5-5--0-0-0----| 3x 
A|--2-2-2--4-4-4-\5-5-5--0-0-0----| 
D|---------4-4-4-\5-5-5--0-0-0----| 


Now this little cool riff 

e|--------------------------------------------------| 
B|--------------------------------------------------| 
G|--------------------------------------------------| 
D|-0-0-0-0-0-0-0-0--00-5/6-00-5/6-------------------| 6x 
A|-0-0-0-0-0-0-0-0--00-5/6-00-5/6-------------------| 
D|-0-0-0-0-0-0-0-0--00-5/6-00-5/6-------------------| 
------palm mute----- -- 


Now this other little ditty..similar to the above 

e|----------------------------------| 
B|----------------------------------| 
G|----------------------------------| 4x 
D|--00-5/6--00-5/6--00-5/6--0000----| 
A|--00-5/6--00-5/6--00-5/6--0000----| 
D|--00-5/6--00-5/6--00-5/6--0000----| 
Pm pm pm -pm- 



Then go back to the top of the page and play everything over again….. 

Now this other riff 
BUT, on the 2nd and 4th time palm mute the 1st 2nd fret chord and on the last open chord play D 
power chord with the 6th string open to give it that sound you hear 


e|-----------------------------------------------| 
B|-----------------------------------------------| 
G|-----------------------------------------------| 
D|-0-0-0-0-0-0-0-0-0-0-0-0--2---2-0-2-5--5-2-0---| 4x 1st 
A|-0-0-0-0-0-0-0-0-0-0-0-0--2---2-0-2-5--5-2-0---| 
D|-0-0-0-0-0-0-0-0-0-0-0-0--2---2-0-2-5--5-2-0---| 
-------palm mute-------- 



Little fill 

You know, the part before the end of the song 
e|-----------| 
B|-----------| 
G|-----------| 
D|---9-7-4---|
repeat as many times as necessary 
A|-----------| 
D|-----------| 


Back To The Top

M-Bomb

Tuning: 

4-C# 1-D# 
5-G# 2-A# OR Db Ab Db Gb Bb Eb 
6-C# 3-F# 

Intro 

D#|------------------------------------------------------ 
A#||------------------------------------------------------ 
F#||------------------------------------------------------ 
C#||--4-4-440----4-4-440-----4-4-440------4-0-7-5----- 2x 
G#||--4-4-440-5--4-4-440--5--4-4-440--5---4-0-7-5----- 
C#||--4-4-440----4-4-440-----4-4-440------4-0-7-5----- 


Play this right after, palm muting most of the time 

D#|--------------------------------------------------- 
A#||--------------------------------------------------- 
F#||--------------------------------------------------- 
C#||--44444444-0000-7/--44444444-00000000---- 
G#||--44444444-0000-7/--44444444-00000000---- 
C#||--44444444-0000-7/--44444444-00000000---- 



"What have I done......" 
D#|-------------------------------------- 
A#||-------------------------------------- 
F#||-------------------------------------- 
C#||-0-4-0-7--0----4--0---4-0--7---0----4-0--7
p=pulloff  
G#||-0-4-0-7--0----4--0---4-0--7---0----4-0--7--- 
h=hammer-on
C#||-0-4-0-7p-0h---4--0---4-0--7p--0h---4p0h-7--- 


Now go back and play that awesome Intro riff! 

After that, here's the part Moby plays 

w/ Phaser (and volume pedal??) 
I know it's not accurate timing at all! But, those are the notes, just play them they way you hear them on the CD! 

D#|------------------------------------------------ 
A#||------------------------------------------------ 
F#||------------------------------------------------ 
C#||------------------------------------------------ 
G#||------------------------------------------------ 
C#||--444444444-0-4440-440-4-0-444444444--- 



Now these parts again 
D#|--------------------------------------------------- 
A#||--------------------------------------------------- 
F#||--------------------------------------------------- 
C#||--44444444-0000-7/--44444444-00000000---- 
G#||--44444444-0000-7/--44444444-00000000---- 
C#||--44444444-0000-7/--44444444-00000000---- 


"What have I done......" 
D#|-------------------------------------- 
A#||-------------------------------------- 
F#||-------------------------------------- 
C#||-4-0-7---0---4--0---4-0-7---0---4-0--7--- 
G#||-4-0-7---0---4--0---4-0-7---0---4-0--7--- 
C#||-4-0-7p--0h--4--0---4-0-7p--0h--4p0h-7--- 


Okay, this new riff now, it's played right after 
Palm mute it! 

D#|------------------------------------------------------------------------ 
A#||----------------------------------------------------------------------- 
F#||-----------------------------------------------------------------------
C#||--0000000000000000-4444444444444444-0000000000000000-77777777-22222222- 
G#||--0000000000000000-4444444444444444-0000000000000000-77777777-22222222- 
C#||--0000000000000000-4444444444444444-0000000000000000-77777777-22222222- 


Now you play it again with except with a little change, and hold the last chord! 
D#|------------------------------------------------------------------- 
A#||------------------------------------------------------------------ 
F#||------------------------------------------------------------------
C#||--0000000000000000-4444444444444444-0000000000000000-7---7-----2-- 
G#||--0000000000000000-4444444444444444-0000000000000000-7---7-----2-- 
C#||--0000000000000000-4444444444444444-0000000000000000-7---7-----2-- 


Now there's that pause, and then that awesome riff again, play along with the CD to get the timing perfect. 

Now play the Intro riff 

"NOOOOOOO!!!!" 
D#|------------------------------------------------------ 
A#||------------------------------------------------------ 
F#||------------------------------------------------------ 
C#||--4-4-440----4-4-440-----4-4-440------4-0-7-5----- 4x 
G#||--4-4-440-5--4-4-440--5--4-4-440--5---4-0-7-5----- 
C#||--4-4-440----4-4-440-----4-4-440------4-0-7-5----- 


Here's this cool part too, played after that riff 

D#|-------------------------------------- 
A#||-------------------------------------- 
F#||-------------------------------------- 
C#||--4---4---4---4---4---4---4----7/4-- 
G#||--4---4---4---4---4---4---4 -0-7/4-- 
C#||--4---4---4---4---4---4---4h-0-7/4-- 


Solo 
Okay so, when playing LIVE, this is how the parts are divided amongst Nicole and Moby: Nicole plays Gtr.1, and Moby plays Gtr.2 2x, then Nicole plays Guitar 2. the last 2x while Moby plays Gtr.3 over Gtr.2, got it? 

Gtr.1 
-Nicole 
D#|------------------------ 
A#||------------------------ 
F#||------------------------
Repeat as many times as needed 
C#||--4--4---0--0---4--4-- 
G#||--4--4---0--0---4--4-- 
C#||--4--4---0--0---4--4--
 


Gtr.2 (played over Gtr.1) 
-Moby 
D#|--------------------------------------------- 
A#||--------------------------------------------- 
F#||-----------------------------6h7p6---------- 
C#||---6h7p6--6h7p6--6h7p6-----------4h6h7-- 4x 
G#||---------------------------------------------- 
C#||---------------------------------------------- 



Gtr.3 (played in harmony with Gtr.2 after Gtr.2 played 2x) 
-Moby 
D#|----------------------------------------------------------------- 
A#||---------------------------------------14h15p14--------------- 
F#||--13h14p13--13h14p14--13h14p13---------------11h13h14-- 2x 
C#||----------------------------------------------------------------- 
G#||----------------------------------------------------------------- 
C#||----------------------------------------------------------------- 


Note- Hold the last notes at the end of the solo, both on Gtr.2 and Gtr.3 

Now, 

"NOOOOOOO!!!!" 
D#|------------------------------------------------------ 
A#||------------------------------------------------------ 
F#||------------------------------------------------------ 
C#||--4-4-440----4-4-440-----4-4-440------4-0-7-5----- 4x 
G#||--4-4-440-5--4-4-440--5--4-4-440--5---4-0-7-5----- 
C#||--4-4-440----4-4-440-----4-4-440------4-0-7-5----- 

Back To The Top

More Than Like 

Drop D for this one: 

Intro 

Acoustic, maybe slightly distorted 

e|--------------------------------------| 
B|--------------------------------------| 
G|--------------------------------------| 
D|--5-5-5---2-2-2----3-3--7-5---5-5-5-5-| 5x 
A|--3-3-3---0-0-0----3-3--5-3---3-3-3-3-| 
D|--------0-------0--3-3----------------| 


Then 

e|---------------------------------------------| 
B|---------------------------------------------| 
G|---------------------------------------------| 
D|--5-5-5---2-2-2-----3-xx-3-xx-3-xx--3--------| 1x 
A|--3-3-3---0-0-0-----3-xx-3-xx-3-xx--3--------| 
D|--------0--------0--3-xx-3-xx-3-xx--3--------|
Hold the chord on the 3rd fret 
----Distortion--- 

Chorus 

Distortion 

e|-----------------------------------------------| 
B|-----------------------------------------------| 
G|-----------------------------------------------| 
D|--5-5-5--0--2-2-2--3---3--3-3-3-3---3---0------| 4x 
A|--3-3-3--0--2-2-2--3---3--3-3-3-3---3---0------| 
D|---------0--2-2-2--3---3--3-3-3-3---3---0------| 
<-palm mute> 



Acoustic, maybe slightly distorted 

e|--------------------------------------| 
B|--------------------------------------| 
G|--------------------------------------| 
D|--5-5-5---2-2-2----3-3--7-5---5-5-5-5-| 5x 
A|--3-3-3---0-0-0----3-3--5-3---3-3-3-3-| 
D|--------0-------0--3-3----------------| 


Then 

e|---------------------------------------------| 
B|---------------------------------------------| 
G|---------------------------------------------| 
D|--5-5-5---2-2-2-----3-xx-3-xx-3-xx--3--------| 1x 
A|--3-3-3---0-0-0-----3-xx-3-xx-3-xx--3--------| 
D|--------0--------0--3-xx-3-xx-3-xx--3--------|
Hold the chord on the 3rd fret 
----Distortion--- 

Chorus 

Distortion 

e|-----------------------------------------------| 
B|-----------------------------------------------| 
G|-----------------------------------------------| 
D|--5-5-5--0--2-2-2--3---3--3-3-3-3---3---0------| 4x 
A|--3-3-3--0--2-2-2--3---3--3-3-3-3---3---0------| 
D|---------0--2-2-2--3---3--3-3-3-3---3---0------| 

<-palm mute> 

Interlude 

e|----------------------------------------------------------------------| 
B|----------------------------------------------------------------------| 
G|----------------------------------------------------------------------| 
D|-5-5-5-5-5-5-5-5--5-5-5-5--3-3-3-3---5-5-5-5-5-5-5-5---5-5-5------3-3-|1x 
A|-5-5-5-5-5-5-5-5--3-3-3-3--1-1-1-1---5-5-5-5-5-5-5-5---3-3-3------1-1-| 
D|-5-5-5-5-5-5-5-5---------------------5-5-5-5-5-5-5-5------------------|
 
<--palm mute--> 

Then 

e|------------------------------------------------------------------------| 
B|------------------------------------------------------------------------| 
G|------------------------------------------------------------------------| 
D|-5-5-5-5-5-5-5-5--5-5-5-5--3-3-3-3---5-5-5-5-5-5-5-5---5-5-5-5--3-3-3-3-|1x 
A|-5-5-5-5-5-5-5-5--3-3-3-3--1-1-1-1---5-5-5-5-5-5-5-5---3-3-3-3--1-1-1-1-| 
D|-5-5-5-5-5-5-5-5---------------------5-5-5-5-5-5-5-5--------------------| 



Then Play this 

e|-------------------------------------| 
B--------------------------------------| 
G|-------------------------------------| 
D|--3-3-3-3-3-3-3-3-3-3-3-3-3-3-3-3----| 1x 
A|--3-3-3-3-3-3-3-3-3-3-3-3-3-3-3-3----| 
D|--3-3-3-3-3-3-3-3-3-3-3-3-3-3-3-3----| 

<----------palm mute-----------> 


Now play the Chorus again: 

Play it as many times as necessary then play the little solo over it 

e|-----------------------------------------------| 
B|-----------------------------------------------| 
G|-----------------------------------------------| 
D|--5-5-5--0--2-2-2--3---3--3-3-3-3---3---0------| 
A|--3-3-3--0--2-2-2--3---3--3-3-3-3---3---0------| 
D|---------0--2-2-2--3---3--3-3-3-3---3---0------| 

<-palm mute> 

Solo 

It's not 100% correct, but I'm pretty sure it 99% 

e|----------------------------------------/8-7-5------------------------------| 
B|-----3-5-6/8-6-5-6--5-6p5p3--5-3---------------8--5-6--8----5-6-8--6-5------| 
G|--5-------------------------------5-4---------------------5------------7-5--| 
D|----------------------------------------------------------------------------| 
A|----------------------------------------------------------------------------| 
D|----------------------------------------------------------------------------| 


Solo cont'd 
e|-------------------------------13-12-10------------------------------------------------| 
B|----------------------------------------13-12-10---------------------------------------| 
G|---9-10/12~-9-10/12--12^full----------------------12-10~--9-10-12--10-9--9p10p9-7---5--| 
D|---------------------------------------------------------------------------------------| 
A|---------------------------------------------------------------------------------------| 
D|---------------------------------------------------------------------------------------| 

Back To The Top

Rednecks N' Monster Trucks

Drop D tuning.... 

Intro 

e||--------------------------------------------------------------------- 
B||--------------------------------------------------------------------- 
G||--------------------------------------------------------------------- 
D||--x555--2-2-2-2-2-2--0-0-0-0-0-0--2-2-2-2-2-2--5-5-5-5-5-5-- 4x 
A||--x555--2-2-2-2-2-2--0-0-0-0-0-0--2-2-2-2-2-2--5-5-5-5-5-5-- 
D||--x555--2-2-2-2-2-2--0-0-0-0-0-0--2-2-2-2-2-2--5-5-5-5-5-5-- 



Chorus 

e||------------------------------------------------------ 
B||------------------------------------------------------
G||------------------------------------------------------
D||--0-0-0-0-0-0-------0-0-0-0-0-0-------3-----22-11-0---
A||--0-0-0-0-0-0-------0-0-0-0-0-0-------3-----22-11-0---
D||--0-0-0-0-0-0-12^--0-0-0-0-0-0-12^--3-----22-11-0-----
---pm--- 

Back To The Top

Rock Past It

Drop D for this one: 

Intro 

D|-7---5---3---2---3-------7---5---3---2---3-------7---5---3---2---3-----------------|2x 
A|-5---3---1---0---1--3----5---3---1---0---1---3---5---3---1---0---1---3---1---1---5-| 
D|--------------------3------------------------3-----------------------3---1---1---5-| 


Verse 1 

e|---------------------------------------------| 
B|---------------------------------------------| 
G|---------------------------------------------| 
D|-3--------7----12--10------------------------| 2x 
A|-1--------5----10--8-----5----3--3-----------| 
D|-------------------------5----3--3-----------| 



Fill 

e|---------------------------------------------- 
B|-----8-10-11---10--8------11--10--8--10------- 
G|--10------------------10-------------------10-- 
D|---------------------------------------------- 
A|---------------------------------------------- 
D|---------------------------------------------- 



Chorus 

e|---------------------------------------------------------- 
B|---------------------------------------------------------- 
G|---------------------------------------------------------- 
D|---------------------------------------------------------- 2x 
A|--1-1-1-1-1-1-1-1-1-0-1-5-5-3--1-1-1-1-1-1-1-1--1-0-1-3--- 
D|--1-1-1-1-1-1-1-1-1-0-1-5-5-3--1-1-1-1-1-1-1-1--1-0-1-3--- 
<----palm muted---> <----palm muted---> 




Intro Riff (2nd time) 

e|---------------------------------------------------------------------------------| 
B|---------------------------------------------------------------------------------| 
G|---------------------------------------------------------------------------------| 
D|-7---5---3---2---3------7---5---3---2---3------7---5---3---2---3-----------------|2x 
A|-5---3---1---0---1---3--5---3---1---0---1---3--5---3---1---0---1---3---1---1---5-| 
D|---------------------3----------------------3----------------------3---1---1---5-| 



Bridge 

e|-----------------| 
B|-----------------| 
G|-----------------| 
D|-3---------------| 
A|-1---- --1----3--| 
D|---------1----3--| 

having fun... *Just rock past it* 


e|------------------------------------- 
B|------------------------------------- 
G|------------------------------------- 
D|-------------------------------(10)-- 
A|-8---8-8--1---6--6/-8---END ON-(10)-- 
D|-8---8-8--1---6--6/-8----------(10)-- 

yea, rock past it, 


Solo 

e|------------------10-10-10--13--10----------------13p10-----13p10-----13p10----13p10---------| 
B|-------------------------------------------------------------11--------11--------11-------11-| 
G|------------10----------------------------------10-------------------------------------------| 
D|///12-12-12----12------------------12-12-12----12--------------------------------------------| 
A|---------------------------------------------------------------------------------------------| 
D|---------------------------------------------------------------------------------------------| 


e|------------------10-10-10--13--10------------------13--11h12p11------10-----------------------| 
B|--------------------------------------------------------------------------13------13--11-------| 
G|------------10----------------------------------10--------------------------------------12--10-| 
D|///12-12-12----12------------------12-12-12----12----------------------------------------------| 
A|-----------------------------------------------------------------------------------------------| 
D|-----------------------------------------------------------------------------------------------| 



End 

e|------------------------------------- 
B|------------------------------------- 
G|------------------------------------- 
D|------------------------------------- 
A|-3--1--1--1--3-1-1-1--3---0---------- 
D|-3--1--1--1--3-1-1-1--3---0----------

Back To The Top

Wake Up You're On Fire 

4-C# 1-D# 
5-G# 2-A# 
6-C# 3-F# 

Intro 

D#|-------------------------------------------------- 
A#||------------------------------------------------- 
F#||------------------------------------------------- 
C#||--2-2-2-0-1---2-2-2-0-1---2-2-2-0-1---2-2-2-0-1-- 
G#||--2-2-2-0-1---2-2-2-0-1---2-2-2-0-1---2-2-2-0-1-- 1x 
C#||--2-2-2-0-1---2-2-2-0-1---2-2-2-0-1---2-2-2-0-1-- 

----------------------palm mute----------------------- 

Now the same riff, without the palm muting 

D#|--------------------------------------------------
A#||-------------------------------------------------
F#||-------------------------------------------------
C#||--2-2-2-0-1---2-2-2-0-1---2-2-2-0-1---2-2-2-0-1-- 
G#||--2-2-2-0-1---2-2-2-0-1---2-2-2-0-1---2-2-2-0-1-- 2x 
C#||--2-2-2-0-1---2-2-2-0-1---2-2-2-0-1---2-2-2-0-1-- 


Now this riff, you play really fast, you HAVE to use alternate picking! There's not going to be the exact number of times the notes are played, you have to figure that out. Does that even make sense? 
D#|-------------------------------------------------------- 
A#||------------------------------------------------------- 
F#||------------------------------------------------------- 
C#||-------------------------------------------------------1.5x 
G#||------------------------------------------------------- 
C#||--33333333333333--0000--2222-3333333333333--0000-2222-- 


Same with this riff, I hope your hands don't get tired! 
D#|------------------------------------------------------
A#||----------------------------------------------------- 
F#||----------------------------------------------------- 
C#||-----------------------------------------------------2x 
G#||----------------------------------------------------- 
C#||--00000000000000000-66666666-555555555555555555555--- 
----------------------------palm mute-------------------- 


Chorus 

"WAKE UP YOU'RE ON, FIRE!!!" 
D#|-----------------------------------------------------------------
A#||----------------------------------------------------------------
F#||----------------------------------------------------------------
C#||----------------------------------------------------------------2x 
G#||--0-0-0-0-0-0-0-0-0-0-0-0-6666-5-5-5-5-5-5-5-5-5-5-5-5-5-5-5-5-- 
C#||--0-0-0-0-0-0-0-0-0-0-0-0-6666-5-5-5-5-5-5-5-5-5-5-5-5-5-5-5-5-- 
----------------------------------palm mute-------------------------


Play this again 

D#|--------------------------------------------------
A#||-------------------------------------------------
F#||-------------------------------------------------
C#||--2-2-2-0-1---2-2-2-0-1---2-2-2-0-1---2-2-2-0-1-- 
G#||--2-2-2-0-1---2-2-2-0-1---2-2-2-0-1---2-2-2-0-1-- 2x 
C#||--2-2-2-0-1---2-2-2-0-1---2-2-2-0-1---2-2-2-0-1-- 

D#|------------------------------------------------------- 
A#||------------------------------------------------------ 
F#||------------------------------------------------------
C#||------------------------------------------------------1.5x 
G#||------------------------------------------------------
C#||--33333333333333--0000--2222-3333333333333--0000-2222- 

D#|------------------------------------------------------- 
A#||------------------------------------------------------ 
F#||------------------------------------------------------
C#||------------------------------------------------------2x 
G#||------------------------------------------------------ 
C#||--00000000000000000-66666666-555555555555555555555---- 
----------------------------palm mute---------------------


"WAKE UP YOU'RE ON, FIRE!!!" 
D#|----------------------------------------------------------------- 
A#||----------------------------------------------------------------
F#||----------------------------------------------------------------
C#||----------------------------------------------------------------2x 
G#||--0-0-0-0-0-0-0-0-0-0-0-0-6666-5-5-5-5-5-5-5-5-5-5-5-5-5-5-5-5-- 
C#||--0-0-0-0-0-0-0-0-0-0-0-0-6666-5-5-5-5-5-5-5-5-5-5-5-5-5-5-5-5-- 
----------------------------------palm mute-------------------------


Play this again 

D#|--------------------------------------------------
A#||------------------------------------------------- 
F#||-------------------------------------------------
C#||--2-2-2-0-1---2-2-2-0-1---2-2-2-0-1---2-2-2-0-1-- 
G#||--2-2-2-0-1---2-2-2-0-1---2-2-2-0-1---2-2-2-0-1-- 2x 
C#||--2-2-2-0-1---2-2-2-0-1---2-2-2-0-1---2-2-2-0-1-- 


Now there's this riff, that sounds pretty similar to a certain Black Sabbath song.....;) I told them that, they just sorta, made a "Umm...uh-oh" kind of face.....lol 

D#|--------------------------------------------------------------------- 
A#||-------------------------------------------------------------------- 
F#||-------------------------------------------------------------------- 
C#||--0---------------0---------------0---------------0--------------0--
 
G#||--0---------------0---------------0----6----5-----0----6----5----0-- 
C#||--0----6----5-----0----6----5-----0---------------0--------------0--
Let notes ring as needed 

Play the chorus again, and then the next riff over it 

Now there's this little synth thing, some type of keyboard? However, I have transcribed it for guitar. I dont know, it sounds pretty damn close! 

D#|---------------------------------------------------------
A#||------15-----------15-----------15---------17-----------
F#||------------14-----------14-----------14-----------14--- 
C#||---12---12-----12---12------12---12----------12--------- 
G#||--------------------------------------------------------
C#||-------------------------------------------------------- 

Back To The Top

Zipper 

Drop D tuning....

Intro 

I'm not sure at all how to play the intro for some reason, so it's wrong.....haha 

e||---------------------- 
B||---------------------- 
G||---------------------- 
D||--0-4-3-0-4-3-0-4----- 11x I think.. 
A||--0-4-3-0-4-3-0-4----- 
D||--0-4-3-0-4-3-0-4----- 

---palm muted--- (at times) 

Now here's this cool little riff right after 
-Play it without plam muting 4x then palm mute it 8x 

e||------------------- 
B||-------------------
G||------------------- 
D||--4---4-0-0-4-4---- 
A||--4---4-0-0-4-4---- 
D||--4---4-0-0-4-4---- 

*use alternate picking, please!* 

Chorus 

e||------------------------------------------------- 
B||------------------------------------------------- 
G||------------------------------------------------- 
D||--7-7-7-7--1-1-1-1--0-0-0-0--x-x--1--x-x-2-- 4x 
A||--7-7-7-7--1-1-1-1--0-0-0-0--x-x--1--x-x-2-- 
D||--7-7-7-7--1-1-1-1--0-0-0-0--x-x--1--x-x-2-- 


Okay there's one more riff left to the song...well, it's a fill.. 

Fill 

e||--------- 
B||--------- 
G||---6^----
make that an artificial harmonic 
D||--------- 
A||--------- 
D||--------- 


Okay those are the only riffs in the song...so play them over as needed and have fun!

Back To The Top